HOME
PAST
2005
2006
2007
2008
2009
2010
2011
2012  
 2013  
 NOW


2014
2015
2016/2017
2018









2018 (back in time):
0-0-0-0-0-0--0-0-0-0-0-0-0--00000-0-0-0-0-0---0-0-0-0----0-0-0-0-0--0-0-0-0----0-0-0-0-0-0-0000-0-0-0-0-0-0----0--0----0--0-0-0---0--0--0---0-000-000-0---0-0-----0-0-0-00-0-0--0-0--0-


21st of July: Playing at Submarine Festival in Den Haag together with Dewi de Vree our performance called Gaia-Resonance.

Click for more pictures at Flickr.


Gaia-resonance consists of an installation-based sound-performance in which physical and natural materials are used to generate and manipulate
electronic sounds: water, sea sponges, skin, stones and graphite are used as variable resistors as part of self made electronic instruments.


gaia-resonance
gaia-resonance
gaia-resonance
gaia-resonance
gaia-resonance
gaia-resonance gaia-resonance
gaia-resonance
0-0-0-0-0-0--0-0-0-0-0-0-0--00000-0-0-0-0-0---0-0-0-0----0-0-0-0-0--0-0-0-0----0-0-0-0-0-0-0000-0-0-0-0-0-0----0--0----0--0-0-0---0--0--0---0-000-0


Listen to our soundtrack Lava on soundcloud, the edited (shortened) version of the live performance in The Hague

0-0-0-0-0-0--0-0-0-0-0-0-0--00000-0-0-0-0-0---0-0-0-0----0-0-0-0-0--0-0-0-0----0-0-0-0-0-0-0000-0-0-0-0-0-0----0--0----0--0-0-0---0--0--0---0-000-00-

Preparing Gaia-resonance in my studio: The resistance of sea sponges filled with water, is used as sensor-input of 3 oscillators;
The sound changes by touching and sqeezing the sponges. Apart from that, the water is connecting the (resistance of) the sponges with each other.
By taking away a sponge out of the water, the sound also changes.

prepare
prepare
prepare
prepare
prepare
preapare
prepare
prepare
prepare
prepare
prepare


0-0-0-0-0-0--0-0-0-0-0-0-0--00000-0-0-0-0-0---0-0-0-0----0-0-0-0-0--0-0-0-0----0-0-0-0-0-0-0000-0-0-0-0-0-0----0--0----0--0-0-0---0--0--0---0-000-0

godijn publishing   15th of july 2018: Nominated for the longlist with a short-story I have written (in dutch),
   for the book ´Grijze Klevers' published by Godijn Publishing
.
    29th of september the 25 published stories will be announced during an event (Boek 10)
   in Hoorn (schouwburg).


  
Link to the book

  






0-0-0-0-0-0--0-0-0-0-0-0-0--00000-0-0-0-0-0---0-0-0-0----0-0-0-0-0--0-0-0-0----0-0-0-0-0-0-0000-0-0-0-0-0-0----0--0----0--0-0-0---0--0--0---0-000-000-0---0-0-----

13th of June 2018: Playing at Villa K (Stichting Centrum) The Hague (NL). Click for more pictures at Flickr

flyer villa k
villa 1
villa k
villa k

Playing with a big white tree-saw and little sponges drowned in water to control variable input resistances of a self-built synth-like circuit.
Combining extremes of the spectrum, physical / literally and in concept:
Big/small, nature/technology, water/electricity, sponge/saw, female/male, violence/sensitivity etc.


0-0-0-0-0-0--0-0-0-0-0-0-0--00000-0-0-0-0-0---0-0-0-0----0-0-0-0-0--0-0-0-0----0-0-0-0-0-0-0000-0-0-0-0-0-0----0--0----0--0-0-0---0--0--0---0-000-000-0---0-0------

30 march / 1st of april: Playing festival Het Rumoer, in Groningen (NL) organised by Tonio Termeer. (Ook op facebook)
First act since my break.


het rumoer
rumoer
het rumoer
rumoerrumoer5rumoerrumoer
rumoerrumoerrumoerrumoer

0-0-0-0-0-0--0-0-0-0-0-0-0--00000-0-0-0-0-0---0-0-0-0----0-0-0-0-0--0-0-0-0----0-0-0-0-0-0-0000-0-0-0-0-0-0----0--0----0--0-0-0---0--0--0---0-000-000-0---

19th of January: Participated with a track on the label sechzig (Zurich) no 18 (achtzehn)

Click to listen the track on bandcamp.


sechzig

0-0-0-0-0-0--0-0-0-0-0-0-0--00000-0-0-0-0-0---0-0-0-0----0-0-0-0-0--0-0-0-0----0-0-0-0-0-0-0000-0-0-0-0-0-0----0--0----0--0-0-0---0--

End of 2017: Participated in the workshop ´Electricity Matters´ at STEIM Amsterdam, during Instruments Make Play Festival .
(Held in Amsterdam, Rotterdam and Deventer)


electricity matters

Experiments with a series of circuits and electronic elements, while manipulating the incoming electricity and interpreting it as sound harmonies or
dissonances. By using electricity as the sole conceptual matter, participants will explore the sound potential of the electric flux, while creating fluid
instruments that are in accord with their individual practice and preferences. Instructor: Nataliya Petkova (Montreal, Canada)


Click for More pictures of the festival


-0-0-0-0-0--0-0-0-0-0-0-0--00000-0-0-0-0-0---0-0-0-0----0-0-0-0-0--0-0-0-0----0-0-0-0-0-0-0000-0-0-0-0-0-0----0--0----0--0-0-0

                                                                                                                                                                           
HOME
PAST
2005
2006
2007
2008
2009
2010
2011 2012  
 2013 
    NOW


2014
2015
2016/2017
2018